Iron Maiden - Trooper (var.12) Basse tab télécharger gratuitement ou jouer en ligne

Basse tab pour Trooper (var.12) de Iron Maiden télécharger gratuitement et lire ou jouer en ligne: fichier .txt, 6.28 kb a 348 vues et 0 téléchargements.

Télécharger basse tab "Trooper (var.12)" (Iron Maiden)

Iron Maiden Nom du groupe
Trooper Nom de la chanson
Basse tabs Type de partition
6.28 kb Taille du fichier
.TXT Type de fichier
348 vues
0 téléchargements
 
Es-tu un robot?

Trooper (var.12) basse tab lire et jouer en ligne

                    G-9-9-9-7---7-7-7-5---5-5-5-3---------
 D---------9---------7---------5---5---
 A-------------------------------5---5-
 E-------------------------------------  x4
I do it this way but you can do it with his burst of 3s it sounds much 
better
 G------------------------------------------------------------------------------------
 D-------------------------5---------------------------5---------------------------5--
 A-7-7-7-7-7-7-7-7-7-7---5---5-7-7-7-7-7-7-7-7-7-7---5---5-3-3-3-3-3-3-3-3-3-3-3-5---5
 E------------------------------------------------------------------------------------
                             X2
 G----------------------------
 D-------------------------5--
 A-7-7-7-7-7-7-7-7-7-7-7-5---5
 E----------------------------


 G------------------------------------
 D--------5----------5----------5-----
 A-7----5---5-7----5---5-3----5---5-7-
 E------------------------------------

 G------------------------------------------------------------------------------------
 D---5---------------------------5---------------------------5------------------------
 A-5---5-7-7-7-7-7-7-7-7-7-7-7-5---5-7-7-7-7-7-7-7-7-7-7-7-5---5-3-3-3-3-3-3-3-3-3-3-3
 E------------------------------------------------------------------------------------
  
                              
 G----------------------------
 D---5------------------------
 A-5---5-7-7-7-7-7-7-7-7-7-7-7
 E----------------------------
                                           
 G----------------------------------------------------
 D----------------------------------------------------
 A-5-5-5-5-5-5-5-5-5-5-5-5-5-7-7-7-7-7-7-7-7-7-7-7-7-7
 E----------------------------------------------------  x2
 

 G------------------------------------------------------------------------------------
 D---5---------------------------5---------------------------5------------------------
 A-5---5-7-7-7-7-7-7-7-7-7-7-7-5---5-7-7-7-7-7-7-7-7-7-7-7-5---5-3-3-3-3-3-3-3-3-3-3-3
 E------------------------------------------------------------------------------------
                                  
 G--------------------------------
 D---3----------------------------
 A-3---3-5-5-5-5-5-5-5-5-5-5-5-5-5
 E--------------------------------  x2

 G------------------------------------------------------------------------------------
 D---5---------------------------5---------------------------5------------------------
 A-5---5-7-7-7-7-7-7-7-7-7-7-7-5---5-7-7-7-7-7-7-7-7-7-7-7-5---5-3-3-3-3-3-3-3-3-3-3-3
 E------------------------------------------------------------------------------------
  
                       
 G----------------------
 D----------------------
 A-7-7-7-7-7-7-7-7-7-7-7
 E----------------------  x2

                                          
 G----------------------------------------------------
 D----------------------------------------------------
 A-5-5-5-5-5-5-5-5-5-5-5-5-5-7-7-7-7-7-7-7-7-7-7-7-7-7
 E----------------------------------------------------
  
                                                          
 G----------------------------------------------------------
 D-------------------------------------------------------5--
 A-5-5-5-5-5-5-5-5-5-5-5-5-5-7-7-7-7-7-7-7-7-7-7-7-7-7-5---5
 E----------------------------------------------------------
  
                                                          
 G-----------------------------------------------------5--------7--
 D-----------------------------------------------------------------
 A-7-7-7-7-7-7-7-7-5-5-5-5-5-5-5-5-2-2-2-2-2-2-2-2-3-3---3--5-5---5
 E-----------------------------------------------------------------   x4

                                                           
 G-----------------------------------------------------5--------7--
 D-7-7-7-7-7-7-7-7-5-5-5-5-5-5-5-5-2-2-2-2-2-2-2-2-3-3---3--5-5---5
 A-----------------------------------------------------------------
 E-----------------------------------------------------------------  x3
                        
                                                         
 G-----------------------------------------------------5--
 D-7-7-7-7-7-7-7-7-5-5-5-5-5-5-5-5-2-2-2-2-2-2-2-2-3-3---3
 A--------------------------------------------------------
 E--------------------------------------------------------


 G------------------------------------------------------------------------------------
 D---5---------------------------5---------------------------5------------------------
 A-5---5-7-7-7-7-7-7-7-7-7-7-7-5---5-7-7-7-7-7-7-7-7-7-7-7-5---5-3-3-3-3-3-3-3-3-3-3-3
 E------------------------------------------------------------------------------------
                                
 G--------------------------------
 D---3----------------------------
 A-3---3-5-5-5-5-5-5-5-5-5-5-5-5-5
 E--------------------------------  x2


 G------------------------------------------------------------------------------------
 D---5---------------------------5---------------------------5------------------------
 A-5---5-7-7-7-7-7-7-7-7-7-7-7-5---5-7-7-7-7-7-7-7-7-7-7-7-5---5-3-3-3-3-3-3-3-3-3-3-3
 E------------------------------------------------------------------------------------
  
                        
 G----------------------
 D----------------------
 A-7-7-7-7-7-7-7-7-7-7-7
 E----------------------  x2

   
 G----------------------------------------------------
 D----------------------------------------------------
 A-5-5-5-5-5-5-5-5-5-5-5-5-5-5-7-7-7-7-7-7-7-7-7-7-7-7
 E----------------------------------------------------
  
                                                            
 G----------------------------------------------------------
 D-------------------------------------------------------5--
 A-5-5-5-5-5-5-5-5-5-5-5-5-5-7-7-7-7-7-7-7-7-7-7-7-7-7-5---5
 E----------------------------------------------------------
                             
 G-9-9-9-7---7-7-7-5---5-5-5-3---------
 D---------9---------7---------5---5---
 A-------------------------------5---5-
 E-------------------------------------  x3                    

Commentaires pour basse tab — Trooper (var.12) (Iron Maiden)

Autres partitions pour Trooper (var.12) de Iron Maiden:

Dernières vues des partitions de Iron Maiden: