Iron Maiden - Trooper (var.31) Tablature guitare télécharger gratuitement ou jouer en ligne

Tablature guitare pour Trooper (var.31) de Iron Maiden télécharger gratuitement et lire ou jouer en ligne: fichier .txt, 12.22 kb a 394 vues et 0 téléchargements.

Télécharger tablature guitare "Trooper (var.31)" (Iron Maiden)

Iron Maiden Nom du groupe
Trooper Nom de la chanson
Tablatures guitare Type de partition
12.22 kb Taille du fichier
.TXT Type de fichier
394 vues
0 téléchargements
 
Es-tu un robot?

Trooper (var.31) tablature guitare lire et jouer en ligne

                    tabbed by: james conlin

h=hammer
p=pull-off
~= vibrato
/=slide


INTRO AND OUTRO:
e|---------------------------------------------------------|
B|---------------------------------------------------------|
G|---------------------------------------------------------|
D|------------------------------------------------5--------|
A|--(7)--7--7-5-----5--5--5-3-----3--3--3-1-----5---5--7---|
E|--------------7-------------5-------------3--------------|

:
e|---------------------------------------------------------|
B|---------------------------------------------------------|
G|---------------------------------------------------------|
D|--(5)--5--5-4-----4--4--4-2-0---2--2--2-0-----4-5-4--5---|
A|--------------7---------------------------3--------------|
E|---------------------------------------------------------|

MAIN RIFF:

Guitar I 
e|------------------7----------------------------------------|
B|--8--7h8p7h8p7h8-----8--7h8p7h8p7h8--8-----------8---------|
G|----------------------------------------9--9~--7---7--9~---|
D|-----------------------------------------------------------|
A|-----------------------------------------------------------|
E|-----------------------------------------------------------|

Guitar II 
e|-----------------------------------------------------------|
B|-----------------------------------------------------------|
G|--------------------7--------------------------------------|
D|--9--7h9p7h9p7h9-----9--7h9p7h9p7h9--9---------------------|
A|---------------------------------------10-10~--9-10-9-10~--|
E|-----------------------------------------------------------|





    
|-----------------------------------------------------------------|
|-----------------------------------------------------------------|
|-----------------------------------------------------------------|
|---9-------7--5--7---9---9-------7--5--7---5---5-------7--5--7---|
|---7-------5--5--5---7---7-------5--5--5---3---3-------5--5--5---|
|---0---------------------0--------------------(0)----------------|

CHORUS:

 listen for the strumming.


|-----------------------------------------------------------------|
|---7-------------------------------------------------------------|
|---7-------------------9-----------------------------------------|
|---7-------------------9-----------------------------------------|
|---5-------------------7-----------------------------------------|
|-----------------------0-----------------------------------------|

Guitar II
|---2-------------------------------------------------------------|
|---3-------------------------------------------------------------|
|---2-------------------9-----------------------------------------|
|---0-------------------9---2----2-0-2----2-0-2----2-0-2----------|
|---0-------------------7---2----2-0-2----2-0-2----2-0-2----------|
|---------------------------0----0---0----0---0----0---0-etc------|


RHYTHM FOR SOLO'S:



Gtr II E(m)-D-B(m)-C-D (Solo 1)   Gtr I A(m)-G-Em-F-G (Solo 2)
|--------------------------------|--------(3)---0-----(1)----3----|
|--------(7)---------(5)----(7)--|---------3----0------1-----3----|
|---9-----7-----4-----5------7---|---2-----4----0------2-----4----|
|---9-----7-----4-----5------7---|---2-----5----2------3-----5----|
|---7-----5-----2-----3------5---|---0-----5----2------3-----5----|
|--(0)---------------------------|--------------0-----(1)---------|

             
Solo 1
   
|------------12--------12--------------------------|
|--15b(17)---15b(17)---15b(17)--r15--12---15~~~----|
|--------------------------------------------------|
|--------------------------------------------------|
|--------------------------------------------------|
|--------------------------------------------------|

           
|------15b(17)~-----15--12-----------------------------------|
|--12--------------------------------------------------------|
|---------------------------15--14--12-----------------------|
|---------------------------------------14b(16)-r14--12------|
|--------------------------------------------------------14--|
|------------------------------------------------------------|

        
|----------------------------------------------------------------|
|--------------12-h15-----------12-h15----------12-h15-----------|
|--14---b(16)----------14b(16)----------14b(16)---------14b(16)--|
|----------------------------------------------------------------|
|----------------------------------------------------------------|
|----------------------------------------------------------------|


|-----------------------------------------------------------------|
|--12-h15----------12-h15----------12-h15----------12-h15---------|
|----------14b(16)---------14b(16)---------14b(16)--------14b(16)-|
|-----------------------------------------------------------------|
|-----------------------------------------------------------------|
|-----------------------------------------------------------------|

   
|---------------------------------------------------------|
|--12-h15----------12-h15----------12-h15---------12-h15--|
|----------14b(16)---------14b(16)--------14b(16)---------|
|---------------------------------------------------------|
|---------------------------------------------------------|
|---------------------------------------------------------|

                     
|-----------------------------------------15--19p15-h17p15------|
|-------------------------------------/17-------------------17--|
|--14----15--14--12--14--14--12~-------------------------------|
|---------------------------------------------------------------|
|---------------------------------------------------------------|
|---------------------------------------------------------------|

                                    
|---15--19p15-h17p15-----15--19p15-h17p15----15--19p15-h17p15--|
|---------------------17------------------17-------------------|
|--------------------------------------------------------------|
|--------------------------------------------------------------|
|--------------------------------------------------------------|
|--------------------------------------------------------------|

                              
|-----15--19p15-h17p15----15--19p15-h17p15------15--19p15-h17p15--|
|--17------------------17-------------------17--------------------|
|-----------------------------------------------------------------|
|-----------------------------------------------------------------|
|-----------------------------------------------------------------|
|-----------------------------------------------------------------|
                                               
                     With harmonics
|-------20b(22)--20b(22)--20b(22)--20b(22)r20--20b(22)r20--|
|---14-----------------------------------------------------|
|----------------------------------------------------------|
|----------------------------------------------------------|
|----------------------------------------------------------|
|----------------------------------------------------------|
                                                  
                     Harmonic ends 
|--20b(22)r20--20b(22)-----19--20--17--19-----17----------------|
|------------------------------------------20-----19h20--17~~--|
|---------------------------------------------------------------|
|---------------------------------------------------------------|
|---------------------------------------------------------------|
|---------------------------------------------------------------|

   
|----------12----------12-----------------------------------------|
|------12------15b(17)-----15--12---------------------------------|
|--/14-----------------------------14b(16)r14--12--14--12---------|
|-----------------------------------------------------------------|
|----------------------------------------------------------14~~---|
|-----------------------------------------------------------------|


Solo 2
  
|--------5h8p5h8p5h8p5h8p5----------------------------------|
|--5h8----------------------8p5h8p5h8p5h8p5-----------------|
|--------------------------------------------7b(9)-(9)r(8)--|
|-----------------------------------------------------------|
|-----------------------------------------------------------|
|-----------------------------------------------------------|

            
|----------------------------------------------------|
|-----------------------------------------------5h7--|
|--7--6--5-----6--5----------------------------------|
|-----------7--------7-------------------------------|
|-----------------------6--5-------------------------|
|-----------------------------8--5~~-----------------|

   
|--------------5h7p5h7p5h7----------------5h7p5h7p5/7--8p7h8p7--|
|--5h7p5h7p5-----------------5h7p5h7p6h8------------------------|
|---------------------------------------------------------------|
|---------------------------------------------------------------|
|---------------------------------------------------------------|
|---------------------------------------------------------------|

             
|----7---10b(12)--10b(12)--10b(12)--(12)r10--8--10~~--8--|
|--10-----------------------------------------------------|
|---------------------------------------------------------|
|---------------------------------------------------------|
|---------------------------------------------------------|
|---------------------------------------------------------|

   
|-----12-----------12--15--12--15--12--12-----------12------|
|-/15-----15b(17)--------------------------15b(17)------15--|
|-----------------------------------------------------------|
|-----------------------------------------------------------|
|-----------------------------------------------------------|
|-----------------------------------------------------------|

                                  
|---------------------------------10h12p10------------------------|
|--13--12--13--12--12---------/10-----------10--13b(15)-HOLD BEND-|
|-----------------------------------------------------------------|
|-----------------------------------------------------------------|
|-----------------------------------------------------------------|
|-----------------------------------------------------------------|

             
|-----------------------------------------|
|--(15)5/---NH---T-bar-------------------|
|------------12---(9)-/-----17b(19)~~~--|
|-----------------------------------------|
|-----------------------------------------|
|-----------------------------------------|

                  
|--------------------------------------------------20b(22)-(22)r20-|
|-----------------------------20b(22)--(22)r20--17-----------------|
|--/17--19b(21)--(21)r19--17---------------------------------------|
|------------------------------------------------------------------|
|------------------------------------------------------------------|
|------------------------------------------------------------------|

          
|--17-------------------20b(22)--20--19--17-----------------------|
|-----20b(22)-------17----------------------20b(22)---------------|
|---------------------------------------------------20b(23)-r(21)-|
|-----------------------------------------------------------------|
|-----------------------------------------------------------------|
|-----------------------------------------------------------------|

   
|--------------------------|
|--1715-------------------|
|---------17--17--14--14--|
|--------------------------|
|--------------------------|
|--------------------------|

Harmonic for Solo 1:

|--14b(15)--14b(15)r14--14b(15)r14--14b(15)r14--14b(15)--|
|--------------------------------------------------------|
|--------------------------------------------------------|
|--------------------------------------------------------|
|--------------------------------------------------------|
|--------------------------------------------------------|


|--12--14-----12----------------------|
|----------15----13--15--12h13--------|
|-------------------------------14~~--|
|-------------------------------------|
|-------------------------------------|
|-------------------------------------|

Visit www.directTABS.com for more free tablature!                    

Commentaires pour tablature guitare — Trooper (var.31) (Iron Maiden)

Autres partitions pour Trooper (var.31) de Iron Maiden:

Dernières vues des partitions de Iron Maiden: